ISO-10303-21;
HEADER;
FILE_DESCRIPTION (( 'STEP AP203' ),
    '1' );
FILE_NAME ('QB-CTZQWP-12.7-780-M.STEP',
    '2020-12-24T01:49:30',
    ( '' ),
    ( '' ),
    'SwSTEP 2.0',
    'SolidWorks 2020',
    '' );
FILE_SCHEMA (( 'CONFIG_CONTROL_DESIGN' ));
ENDSEC;

DATA;
#1 = CARTESIAN_POINT ( 'NONE',  ( 1.500000000000000888, 0.000000000000000000, 0.000000000000000000 ) ) ;
#2 = LOCAL_TIME ( 9, 49, 30.00000000000000000, #264 ) ;
#3 = DIRECTION ( 'NONE',  ( -1.000000000000000000, -0.000000000000000000, -0.000000000000000000 ) ) ;
#4 = AXIS2_PLACEMENT_3D ( 'NONE', #88, #107, #291 ) ;
#5 = ORIENTED_EDGE ( 'NONE', *, *, #317, .F. ) ;
#6 = PERSON_AND_ORGANIZATION ( #209, #87 ) ;
#7 =( NAMED_UNIT ( * ) SI_UNIT ( $, .STERADIAN. ) SOLID_ANGLE_UNIT ( ) );
#8 = DIRECTION ( 'NONE',  ( 0.000000000000000000, 0.000000000000000000, 1.000000000000000000 ) ) ;
#9 = DIRECTION ( 'NONE',  ( 0.000000000000000000, 0.000000000000000000, -1.000000000000000000 ) ) ;
#10 = EDGE_CURVE ( 'NONE', #233, #215, #313, .T. ) ;
#11 = DIRECTION ( 'NONE',  ( -1.000000000000000000, -0.000000000000000000, -0.000000000000000000 ) ) ;
#12 = ADVANCED_FACE ( 'NONE', ( #77 ), #205, .F. ) ;
#13 = CC_DESIGN_APPROVAL ( #173, ( #295 ) ) ;
#14 = PERSON_AND_ORGANIZATION ( #209, #87 ) ;
#15 = EDGE_LOOP ( 'NONE', ( #113, #90 ) ) ;
#16 = ORIENTED_EDGE ( 'NONE', *, *, #174, .T. ) ;
#17 = EDGE_LOOP ( 'NONE', ( #245, #124, #324, #19 ) ) ;
#18 = ORIENTED_EDGE ( 'NONE', *, *, #10, .T. ) ;
#19 = ORIENTED_EDGE ( 'NONE', *, *, #174, .F. ) ;
#20 = CARTESIAN_POINT ( 'NONE',  ( -1.614212418857619014, 0.000000000000000000, 12.69999999999999929 ) ) ;
#21 = ADVANCED_FACE ( 'NONE', ( #258 ), #132, .F. ) ;
#22 = CARTESIAN_POINT ( 'NONE',  ( -1.614212418857619014, 0.000000000000000000, 6.349999999999999645 ) ) ;
#23 = APPROVAL_STATUS ( 'not_yet_approved' ) ;
#24 = AXIS2_PLACEMENT_3D ( 'NONE', #288, #261, #235 ) ;
#25 = APPROVAL_DATE_TIME ( #251, #173 ) ;
#26 = APPROVAL_DATE_TIME ( #177, #332 ) ;
#27 = CIRCLE ( 'NONE', #76, 6.349999999999999645 ) ;
#28 = PRODUCT ( 'QB-CTZQWP-12.7-780-M', 'QB-CTZQWP-12.7-780-M', '', ( #97 ) ) ;
#29 = CARTESIAN_POINT ( 'NONE',  ( -2.999999999999999556, 0.000000000000000000, 6.349999999999999645 ) ) ;
#30 = DIRECTION ( 'NONE',  ( -1.000000000000000000, -0.000000000000000000, -0.000000000000000000 ) ) ;
#31 = ORIENTED_EDGE ( 'NONE', *, *, #309, .F. ) ;
#32 = SECURITY_CLASSIFICATION_LEVEL ( 'unclassified' ) ;
#33 = CARTESIAN_POINT ( 'NONE',  ( -1.500000000000000444, 7.776507174585692163E-16, -6.349999999999999645 ) ) ;
#34 = CARTESIAN_POINT ( 'NONE',  ( 3.000000000000000888, 0.000000000000000000, 0.000000000000000000 ) ) ;
#35 =( GEOMETRIC_REPRESENTATION_CONTEXT ( 3 ) GLOBAL_UNCERTAINTY_ASSIGNED_CONTEXT ( ( #335 ) ) GLOBAL_UNIT_ASSIGNED_CONTEXT ( ( #159, #239, #7 ) ) REPRESENTATION_CONTEXT ( 'NONE', 'WORKASPACE' ) );
#36 = CARTESIAN_POINT ( 'NONE',  ( 3.000000000000000000, 0.000000000000000000, 0.000000000000000000 ) ) ;
#37 = FACE_OUTER_BOUND ( 'NONE', #248, .T. ) ;
#38 = ADVANCED_FACE ( 'NONE', ( #237 ), #284, .F. ) ;
#39 = APPROVAL_DATE_TIME ( #133, #129 ) ;
#40 = PERSON_AND_ORGANIZATION_ROLE ( 'design_supplier' ) ;
#41 = VECTOR ( 'NONE', #94, 1000.000000000000000 ) ;
#42 = AXIS2_PLACEMENT_3D ( 'NONE', #151, #188, #199 ) ;
#43 = ORIENTED_EDGE ( 'NONE', *, *, #78, .T. ) ;
#44 = CARTESIAN_POINT ( 'NONE',  ( -3.000000000000000000, 0.000000000000000000, 0.000000000000000000 ) ) ;
#45 = ORIENTED_EDGE ( 'NONE', *, *, #268, .T. ) ;
#46 = FACE_OUTER_BOUND ( 'NONE', #96, .T. ) ;
#47 = EDGE_CURVE ( 'NONE', #191, #165, #254, .T. ) ;
#48 = DIRECTION ( 'NONE',  ( 0.000000000000000000, 0.000000000000000000, -1.000000000000000000 ) ) ;
#49 = ORIENTED_EDGE ( 'NONE', *, *, #92, .T. ) ;
#50 = APPLICATION_PROTOCOL_DEFINITION ( 'international standard', 'config_control_design', 1994, #100 ) ;
#51 = CIRCLE ( 'NONE', #179, 12.69999999999999929 ) ;
#52 = PERSON_AND_ORGANIZATION ( #209, #87 ) ;
#53 = LOCAL_TIME ( 9, 49, 30.00000000000000000, #225 ) ;
#54 = LINE ( 'NONE', #57, #150 ) ;
#55 = AXIS2_PLACEMENT_3D ( 'NONE', #185, #155, #201 ) ;
#56 = DIRECTION ( 'NONE',  ( -1.000000000000000000, -0.000000000000000000, -0.000000000000000000 ) ) ;
#57 = CARTESIAN_POINT ( 'NONE',  ( -1.614212418857619014, 7.776507174585692163E-16, -6.349999999999999645 ) ) ;
#58 = PRODUCT_RELATED_PRODUCT_CATEGORY ( 'detail', '', ( #28 ) ) ;
#59 = CARTESIAN_POINT ( 'NONE',  ( -1.614212418857619014, 0.000000000000000000, 0.000000000000000000 ) ) ;
#60 = CARTESIAN_POINT ( 'NONE',  ( -1.614212418857619014, 1.555301434917138433E-15, -12.69999999999999929 ) ) ;
#61 = DIRECTION ( 'NONE',  ( -1.000000000000000000, -0.000000000000000000, -0.000000000000000000 ) ) ;
#62 = CC_DESIGN_PERSON_AND_ORGANIZATION_ASSIGNMENT ( #52, #123, ( #176 ) ) ;
#63 = ORIENTED_EDGE ( 'NONE', *, *, #294, .T. ) ;
#64 = EDGE_CURVE ( 'NONE', #137, #233, #282, .T. ) ;
#65 = ORIENTED_EDGE ( 'NONE', *, *, #214, .F. ) ;
#66 = CIRCLE ( 'NONE', #104, 6.349999999999999645 ) ;
#67 = VERTEX_POINT ( 'NONE', #29 ) ;
#68 = ORIENTED_EDGE ( 'NONE', *, *, #64, .F. ) ;
#69 = LOCAL_TIME ( 9, 49, 30.00000000000000000, #112 ) ;
#70 = LINE ( 'NONE', #20, #41 ) ;
#71 = DIRECTION ( 'NONE',  ( 0.000000000000000000, 0.000000000000000000, -1.000000000000000000 ) ) ;
#72 = PERSON_AND_ORGANIZATION ( #209, #87 ) ;
#73 = DIRECTION ( 'NONE',  ( -1.000000000000000000, -0.000000000000000000, -0.000000000000000000 ) ) ;
#74 = SECURITY_CLASSIFICATION ( '', '', #32 ) ;
#75 = CALENDAR_DATE ( 2020, 24, 12 ) ;
#76 = AXIS2_PLACEMENT_3D ( 'NONE', #34, #229, #256 ) ;
#77 = FACE_OUTER_BOUND ( 'NONE', #300, .T. ) ;
#78 = EDGE_CURVE ( 'NONE', #263, #67, #126, .T. ) ;
#79 = DIRECTION ( 'NONE',  ( 0.000000000000000000, 0.000000000000000000, 1.000000000000000000 ) ) ;
#80 = EDGE_CURVE ( 'NONE', #267, #263, #54, .T. ) ;
#81 = CIRCLE ( 'NONE', #24, 6.349999999999999645 ) ;
#82 = DIRECTION ( 'NONE',  ( -1.000000000000000000, -0.000000000000000000, -0.000000000000000000 ) ) ;
#83 = DIRECTION ( 'NONE',  ( 0.000000000000000000, 0.000000000000000000, 1.000000000000000000 ) ) ;
#84 = DIRECTION ( 'NONE',  ( -1.000000000000000000, -0.000000000000000000, -0.000000000000000000 ) ) ;
#85 = FACE_OUTER_BOUND ( 'NONE', #117, .T. ) ;
#86 = CARTESIAN_POINT ( 'NONE',  ( 1.500000000000000888, 7.776507174585692163E-16, -6.349999999999999645 ) ) ;
#87 = ORGANIZATION ( 'UNSPECIFIED', 'UNSPECIFIED', '' ) ;
#88 = CARTESIAN_POINT ( 'NONE',  ( -3.000000000000000000, 0.000000000000000000, 0.000000000000000000 ) ) ;
#89 = ORIENTED_EDGE ( 'NONE', *, *, #166, .T. ) ;
#90 = ORIENTED_EDGE ( 'NONE', *, *, #310, .F. ) ;
#91 = ORIENTED_EDGE ( 'NONE', *, *, #92, .F. ) ;
#92 = EDGE_CURVE ( 'NONE', #114, #191, #27, .T. ) ;
#93 = ORIENTED_EDGE ( 'NONE', *, *, #78, .F. ) ;
#94 = DIRECTION ( 'NONE',  ( -1.000000000000000000, -0.000000000000000000, -0.000000000000000000 ) ) ;
#95 = CARTESIAN_POINT ( 'NONE',  ( 3.000000000000000888, 7.776507174585692163E-16, -6.349999999999999645 ) ) ;
#96 = EDGE_LOOP ( 'NONE', ( #299, #18 ) ) ;
#97 = MECHANICAL_CONTEXT ( 'NONE', #323, 'mechanical' ) ;
#98 = CALENDAR_DATE ( 2020, 24, 12 ) ;
#99 = AXIS2_PLACEMENT_3D ( 'NONE', #44, #139, #83 ) ;
#100 = APPLICATION_CONTEXT ( 'configuration controlled 3d designs of mechanical parts and assemblies' ) ;
#101 = ADVANCED_FACE ( 'NONE', ( #102 ), #316, .F. ) ;
#102 = FACE_OUTER_BOUND ( 'NONE', #15, .T. ) ;
#103 = DIRECTION ( 'NONE',  ( -1.000000000000000000, -0.000000000000000000, -0.000000000000000000 ) ) ;
#104 = AXIS2_PLACEMENT_3D ( 'NONE', #189, #157, #322 ) ;
#105 = CARTESIAN_POINT ( 'NONE',  ( -1.614212418857619014, 0.000000000000000000, 0.000000000000000000 ) ) ;
#106 = PERSON_AND_ORGANIZATION_ROLE ( 'classification_officer' ) ;
#107 = DIRECTION ( 'NONE',  ( -1.000000000000000000, -0.000000000000000000, -0.000000000000000000 ) ) ;
#108 = DIRECTION ( 'NONE',  ( -1.000000000000000000, 0.000000000000000000, -0.000000000000000000 ) ) ;
#109 = CARTESIAN_POINT ( 'NONE',  ( 3.000000000000000000, 0.000000000000000000, 12.69999999999999929 ) ) ;
#110 = DATE_AND_TIME ( #234, #2 ) ;
#111 = CYLINDRICAL_SURFACE ( 'NONE', #146, 12.69999999999999929 ) ;
#112 = COORDINATED_UNIVERSAL_TIME_OFFSET ( 8, 0, .AHEAD. ) ;
#113 = ORIENTED_EDGE ( 'NONE', *, *, #148, .F. ) ;
#114 = VERTEX_POINT ( 'NONE', #320 ) ;
#115 = ORIENTED_EDGE ( 'NONE', *, *, #186, .T. ) ;
#116 = AXIS2_PLACEMENT_3D ( 'NONE', #240, #108, #257 ) ;
#117 = EDGE_LOOP ( 'NONE', ( #45, #119, #5, #327 ) ) ;
#118 = CARTESIAN_POINT ( 'NONE',  ( -3.000000000000000000, 6.349999999999999645, 0.000000000000000000 ) ) ;
#119 = ORIENTED_EDGE ( 'NONE', *, *, #64, .T. ) ;
#120 = DIRECTION ( 'NONE',  ( -1.000000000000000000, -0.000000000000000000, -0.000000000000000000 ) ) ;
#121 = APPROVAL_ROLE ( '' ) ;
#122 = PERSON_AND_ORGANIZATION ( #209, #87 ) ;
#123 = PERSON_AND_ORGANIZATION_ROLE ( 'creator' ) ;
#124 = ORIENTED_EDGE ( 'NONE', *, *, #47, .T. ) ;
#125 = LOCAL_TIME ( 9, 49, 30.00000000000000000, #306 ) ;
#126 = CIRCLE ( 'NONE', #170, 6.349999999999999645 ) ;
#127 = DIRECTION ( 'NONE',  ( -1.000000000000000000, -0.000000000000000000, -0.000000000000000000 ) ) ;
#128 = PRODUCT_DEFINITION_SHAPE ( 'NONE', 'NONE',  #295 ) ;
#129 = APPROVAL ( #321, 'UNSPECIFIED' ) ;
#130 = CARTESIAN_POINT ( 'NONE',  ( -1.500000000000000444, 0.000000000000000000, 6.349999999999999645 ) ) ;
#131 = DIRECTION ( 'NONE',  ( -1.000000000000000000, -0.000000000000000000, -0.000000000000000000 ) ) ;
#132 = CYLINDRICAL_SURFACE ( 'NONE', #273, 6.349999999999999645 ) ;
#133 = DATE_AND_TIME ( #290, #69 ) ;
#134 = EDGE_CURVE ( 'NONE', #164, #267, #136, .T. ) ;
#135 = CYLINDRICAL_SURFACE ( 'NONE', #297, 6.349999999999999645 ) ;
#136 = CIRCLE ( 'NONE', #242, 6.349999999999999645 ) ;
#137 = VERTEX_POINT ( 'NONE', #312 ) ;
#138 = ORIENTED_EDGE ( 'NONE', *, *, #247, .T. ) ;
#139 = DIRECTION ( 'NONE',  ( -1.000000000000000000, -0.000000000000000000, -0.000000000000000000 ) ) ;
#140 = APPROVAL_PERSON_ORGANIZATION ( #293, #129, #260 ) ;
#141 = VERTEX_POINT ( 'NONE', #109 ) ;
#142 = VECTOR ( 'NONE', #30, 1000.000000000000000 ) ;
#143 = LINE ( 'NONE', #22, #181 ) ;
#144 = FACE_OUTER_BOUND ( 'NONE', #213, .T. ) ;
#145 = CALENDAR_DATE ( 2020, 24, 12 ) ;
#146 = AXIS2_PLACEMENT_3D ( 'NONE', #184, #61, #262 ) ;
#147 = APPROVAL_STATUS ( 'not_yet_approved' ) ;
#148 = EDGE_CURVE ( 'NONE', #193, #165, #331, .T. ) ;
#149 = DIRECTION ( 'NONE',  ( 1.000000000000000000, 0.000000000000000000, 0.000000000000000000 ) ) ;
#150 = VECTOR ( 'NONE', #103, 1000.000000000000000 ) ;
#151 = CARTESIAN_POINT ( 'NONE',  ( 3.000000000000000888, 0.000000000000000000, 0.000000000000000000 ) ) ;
#152 = CARTESIAN_POINT ( 'NONE',  ( -1.614212418857619014, 7.776507174585692163E-16, -6.349999999999999645 ) ) ;
#153 = CC_DESIGN_APPROVAL ( #332, ( #176 ) ) ;
#154 = DIRECTION ( 'NONE',  ( 0.000000000000000000, 0.000000000000000000, -1.000000000000000000 ) ) ;
#155 = DIRECTION ( 'NONE',  ( -1.000000000000000000, 0.000000000000000000, -0.000000000000000000 ) ) ;
#156 = DATE_TIME_ROLE ( 'classification_date' ) ;
#157 = DIRECTION ( 'NONE',  ( -1.000000000000000000, -0.000000000000000000, -0.000000000000000000 ) ) ;
#158 = CARTESIAN_POINT ( 'NONE',  ( -2.999999999999999556, 7.776507174585692163E-16, -6.349999999999999645 ) ) ;
#159 =( LENGTH_UNIT ( ) NAMED_UNIT ( * ) SI_UNIT ( .MILLI., .METRE. ) );
#160 = CC_DESIGN_APPROVAL ( #129, ( #74 ) ) ;
#161 = ORIENTED_EDGE ( 'NONE', *, *, #214, .T. ) ;
#162 = AXIS2_PLACEMENT_3D ( 'NONE', #249, #330, #71 ) ;
#163 = ORIENTED_EDGE ( 'NONE', *, *, #134, .F. ) ;
#164 = VERTEX_POINT ( 'NONE', #130 ) ;
#165 = VERTEX_POINT ( 'NONE', #86 ) ;
#166 = EDGE_CURVE ( 'NONE', #191, #114, #326, .T. ) ;
#167 = CC_DESIGN_PERSON_AND_ORGANIZATION_ASSIGNMENT ( #14, #106, ( #74 ) ) ;
#168 = CARTESIAN_POINT ( 'NONE',  ( -3.000000000000000000, 0.000000000000000000, 12.69999999999999929 ) ) ;
#169 = EDGE_LOOP ( 'NONE', ( #163, #244 ) ) ;
#170 = AXIS2_PLACEMENT_3D ( 'NONE', #228, #334, #79 ) ;
#171 = PLANE ( 'NONE',  #162 ) ;
#172 = PERSON_AND_ORGANIZATION_ROLE ( 'design_owner' ) ;
#173 = APPROVAL ( #23, 'UNSPECIFIED' ) ;
#174 = EDGE_CURVE ( 'NONE', #114, #193, #143, .T. ) ;
#175 = APPLICATION_PROTOCOL_DEFINITION ( 'international standard', 'config_control_design', 1994, #323 ) ;
#176 = PRODUCT_DEFINITION_FORMATION_WITH_SPECIFIED_SOURCE ( 'ANY', '', #28, .NOT_KNOWN. ) ;
#177 = DATE_AND_TIME ( #75, #125 ) ;
#178 = ADVANCED_FACE ( 'NONE', ( #275 ), #171, .F. ) ;
#179 = AXIS2_PLACEMENT_3D ( 'NONE', #204, #187, #8 ) ;
#180 = CARTESIAN_POINT ( 'NONE',  ( -1.500000000000000444, 0.000000000000000000, 0.000000000000000000 ) ) ;
#181 = VECTOR ( 'NONE', #120, 1000.000000000000000 ) ;
#182 = AXIS2_PLACEMENT_3D ( 'NONE', #1, #56, #208 ) ;
#183 = CARTESIAN_POINT ( 'NONE',  ( -1.614212418857619014, 0.000000000000000000, 0.000000000000000000 ) ) ;
#184 = CARTESIAN_POINT ( 'NONE',  ( -1.614212418857619014, 0.000000000000000000, 0.000000000000000000 ) ) ;
#185 = CARTESIAN_POINT ( 'NONE',  ( 1.500000000000000444, 6.349999999999999645, 0.000000000000000000 ) ) ;
#186 = EDGE_CURVE ( 'NONE', #141, #215, #70, .T. ) ;
#187 = DIRECTION ( 'NONE',  ( -1.000000000000000000, -0.000000000000000000, -0.000000000000000000 ) ) ;
#188 = DIRECTION ( 'NONE',  ( -1.000000000000000000, -0.000000000000000000, -0.000000000000000000 ) ) ;
#189 = CARTESIAN_POINT ( 'NONE',  ( -2.999999999999999556, 0.000000000000000000, 0.000000000000000000 ) ) ;
#190 = EDGE_LOOP ( 'NONE', ( #68, #63, #115, #192 ) ) ;
#191 = VERTEX_POINT ( 'NONE', #95 ) ;
#192 = ORIENTED_EDGE ( 'NONE', *, *, #10, .F. ) ;
#193 = VERTEX_POINT ( 'NONE', #197 ) ;
#194 = CARTESIAN_POINT ( 'NONE',  ( -3.000000000000000000, 1.555301434917138433E-15, -12.69999999999999929 ) ) ;
#195 = AXIS2_PLACEMENT_3D ( 'NONE', #105, #131, #311 ) ;
#196 = CARTESIAN_POINT ( 'NONE',  ( 0.000000000000000000, 0.000000000000000000, 0.000000000000000000 ) ) ;
#197 = CARTESIAN_POINT ( 'NONE',  ( 1.500000000000000888, 0.000000000000000000, 6.349999999999999645 ) ) ;
#198 = DATE_TIME_ROLE ( 'creation_date' ) ;
#199 = DIRECTION ( 'NONE',  ( 0.000000000000000000, 0.000000000000000000, 1.000000000000000000 ) ) ;
#200 = CC_DESIGN_PERSON_AND_ORGANIZATION_ASSIGNMENT ( #72, #172, ( #28 ) ) ;
#201 = DIRECTION ( 'NONE',  ( -0.000000000000000000, 0.000000000000000000, 1.000000000000000000 ) ) ;
#202 = DIRECTION ( 'NONE',  ( 0.000000000000000000, 0.000000000000000000, 1.000000000000000000 ) ) ;
#203 = AXIS2_PLACEMENT_3D ( 'NONE', #36, #84, #210 ) ;
#204 = CARTESIAN_POINT ( 'NONE',  ( 3.000000000000000000, 0.000000000000000000, 0.000000000000000000 ) ) ;
#205 = CYLINDRICAL_SURFACE ( 'NONE', #302, 6.349999999999999645 ) ;
#206 = DESIGN_CONTEXT ( 'detailed design', #100, 'design' ) ;
#207 = DIRECTION ( 'NONE',  ( 1.000000000000000000, 0.000000000000000000, 0.000000000000000000 ) ) ;
#208 = DIRECTION ( 'NONE',  ( 0.000000000000000000, 0.000000000000000000, 1.000000000000000000 ) ) ;
#209 = PERSON ( 'UNSPECIFIED', 'UNSPECIFIED', 'UNSPECIFIED', ('UNSPECIFIED'), ('UNSPECIFIED'), ('UNSPECIFIED') ) ;
#210 = DIRECTION ( 'NONE',  ( 0.000000000000000000, 0.000000000000000000, 1.000000000000000000 ) ) ;
#211 = LOCAL_TIME ( 9, 49, 30.00000000000000000, #226 ) ;
#212 = CARTESIAN_POINT ( 'NONE',  ( -1.614212418857619014, 0.000000000000000000, 0.000000000000000000 ) ) ;
#213 = EDGE_LOOP ( 'NONE', ( #274, #243 ) ) ;
#214 = EDGE_CURVE ( 'NONE', #164, #67, #304, .T. ) ;
#215 = VERTEX_POINT ( 'NONE', #168 ) ;
#216 = VECTOR ( 'NONE', #73, 1000.000000000000000 ) ;
#217 = AXIS2_PLACEMENT_3D ( 'NONE', #196, #303, #276 ) ;
#218 = ADVANCED_FACE ( 'NONE', ( #301, #46 ), #329, .F. ) ;
#219 = ORIENTED_EDGE ( 'NONE', *, *, #134, .T. ) ;
#220 = EDGE_LOOP ( 'NONE', ( #31, #93 ) ) ;
#221 = DIRECTION ( 'NONE',  ( 1.000000000000000000, 0.000000000000000000, 0.000000000000000000 ) ) ;
#222 = PERSON_AND_ORGANIZATION_ROLE ( 'creator' ) ;
#223 = CC_DESIGN_DATE_AND_TIME_ASSIGNMENT ( #110, #156, ( #74 ) ) ;
#224 = CIRCLE ( 'NONE', #203, 12.69999999999999929 ) ;
#225 = COORDINATED_UNIVERSAL_TIME_OFFSET ( 8, 0, .AHEAD. ) ;
#226 = COORDINATED_UNIVERSAL_TIME_OFFSET ( 8, 0, .AHEAD. ) ;
#227 = ADVANCED_BREP_SHAPE_REPRESENTATION ( 'QB-CTZQWP-12.7-780-M', ( #305, #217 ), #35 ) ;
#228 = CARTESIAN_POINT ( 'NONE',  ( -2.999999999999999556, 0.000000000000000000, 0.000000000000000000 ) ) ;
#229 = DIRECTION ( 'NONE',  ( -1.000000000000000000, -0.000000000000000000, -0.000000000000000000 ) ) ;
#230 = CC_DESIGN_PERSON_AND_ORGANIZATION_ASSIGNMENT ( #6, #40, ( #176 ) ) ;
#231 = DIRECTION ( 'NONE',  ( -1.000000000000000000, -0.000000000000000000, -0.000000000000000000 ) ) ;
#232 = CLOSED_SHELL ( 'NONE', ( #269, #12, #21, #101, #38, #277, #218, #252, #246, #178 ) ) ;
#233 = VERTEX_POINT ( 'NONE', #194 ) ;
#234 = CALENDAR_DATE ( 2020, 24, 12 ) ;
#235 = DIRECTION ( 'NONE',  ( 0.000000000000000000, 0.000000000000000000, 1.000000000000000000 ) ) ;
#236 = FACE_OUTER_BOUND ( 'NONE', #190, .T. ) ;
#237 = FACE_OUTER_BOUND ( 'NONE', #328, .T. ) ;
#238 = SHAPE_DEFINITION_REPRESENTATION ( #128, #227 ) ;
#239 =( NAMED_UNIT ( * ) PLANE_ANGLE_UNIT ( ) SI_UNIT ( $, .RADIAN. ) );
#240 = CARTESIAN_POINT ( 'NONE',  ( 3.000000000000000000, 12.69999999999999929, 0.000000000000000000 ) ) ;
#241 = CC_DESIGN_DATE_AND_TIME_ASSIGNMENT ( #333, #198, ( #295 ) ) ;
#242 = AXIS2_PLACEMENT_3D ( 'NONE', #180, #149, #9 ) ;
#243 = ORIENTED_EDGE ( 'NONE', *, *, #294, .F. ) ;
#244 = ORIENTED_EDGE ( 'NONE', *, *, #247, .F. ) ;
#245 = ORIENTED_EDGE ( 'NONE', *, *, #166, .F. ) ;
#246 = ADVANCED_FACE ( 'NONE', ( #144, #250 ), #315, .F. ) ;
#247 = EDGE_CURVE ( 'NONE', #267, #164, #308, .T. ) ;
#248 = EDGE_LOOP ( 'NONE', ( #292, #138, #161, #325 ) ) ;
#249 = CARTESIAN_POINT ( 'NONE',  ( -1.500000000000000444, 6.349999999999999645, 0.000000000000000000 ) ) ;
#250 = FACE_BOUND ( 'NONE', #298, .T. ) ;
#251 = DATE_AND_TIME ( #145, #53 ) ;
#252 = ADVANCED_FACE ( 'NONE', ( #236 ), #289, .T. ) ;
#253 = APPROVAL_ROLE ( '' ) ;
#254 = LINE ( 'NONE', #152, #142 ) ;
#255 = CARTESIAN_POINT ( 'NONE',  ( -1.614212418857619014, 0.000000000000000000, 0.000000000000000000 ) ) ;
#256 = DIRECTION ( 'NONE',  ( 0.000000000000000000, 0.000000000000000000, 1.000000000000000000 ) ) ;
#257 = DIRECTION ( 'NONE',  ( -0.000000000000000000, 0.000000000000000000, 1.000000000000000000 ) ) ;
#258 = FACE_OUTER_BOUND ( 'NONE', #17, .T. ) ;
#259 = AXIS2_PLACEMENT_3D ( 'NONE', #118, #221, #48 ) ;
#260 = APPROVAL_ROLE ( '' ) ;
#261 = DIRECTION ( 'NONE',  ( -1.000000000000000000, -0.000000000000000000, -0.000000000000000000 ) ) ;
#262 = DIRECTION ( 'NONE',  ( 0.000000000000000000, 0.000000000000000000, 1.000000000000000000 ) ) ;
#263 = VERTEX_POINT ( 'NONE', #158 ) ;
#264 = COORDINATED_UNIVERSAL_TIME_OFFSET ( 8, 0, .AHEAD. ) ;
#265 = CIRCLE ( 'NONE', #4, 12.69999999999999929 ) ;
#266 = ORIENTED_EDGE ( 'NONE', *, *, #47, .F. ) ;
#267 = VERTEX_POINT ( 'NONE', #33 ) ;
#268 = EDGE_CURVE ( 'NONE', #141, #137, #51, .T. ) ;
#269 = ADVANCED_FACE ( 'NONE', ( #85 ), #111, .T. ) ;
#270 = APPROVAL_PERSON_ORGANIZATION ( #280, #332, #253 ) ;
#271 = ORIENTED_EDGE ( 'NONE', *, *, #80, .T. ) ;
#272 = CARTESIAN_POINT ( 'NONE',  ( -1.614212418857619014, 0.000000000000000000, 6.349999999999999645 ) ) ;
#273 = AXIS2_PLACEMENT_3D ( 'NONE', #183, #3, #286 ) ;
#274 = ORIENTED_EDGE ( 'NONE', *, *, #268, .F. ) ;
#275 = FACE_OUTER_BOUND ( 'NONE', #169, .T. ) ;
#276 = DIRECTION ( 'NONE',  ( 1.000000000000000000, 0.000000000000000000, 0.000000000000000000 ) ) ;
#277 = ADVANCED_FACE ( 'NONE', ( #37 ), #135, .F. ) ;
#278 = PERSON_AND_ORGANIZATION ( #209, #87 ) ;
#279 = VECTOR ( 'NONE', #231, 1000.000000000000000 ) ;
#280 = PERSON_AND_ORGANIZATION ( #209, #87 ) ;
#281 = AXIS2_PLACEMENT_3D ( 'NONE', #59, #11, #319 ) ;
#282 = LINE ( 'NONE', #60, #279 ) ;
#283 = CC_DESIGN_PERSON_AND_ORGANIZATION_ASSIGNMENT ( #122, #222, ( #295 ) ) ;
#284 = CYLINDRICAL_SURFACE ( 'NONE', #195, 6.349999999999999645 ) ;
#285 = CARTESIAN_POINT ( 'NONE',  ( -1.500000000000000444, 0.000000000000000000, 0.000000000000000000 ) ) ;
#286 = DIRECTION ( 'NONE',  ( 0.000000000000000000, 0.000000000000000000, 1.000000000000000000 ) ) ;
#287 = APPROVAL_PERSON_ORGANIZATION ( #278, #173, #121 ) ;
#288 = CARTESIAN_POINT ( 'NONE',  ( 1.500000000000000888, 0.000000000000000000, 0.000000000000000000 ) ) ;
#289 = CYLINDRICAL_SURFACE ( 'NONE', #281, 12.69999999999999929 ) ;
#290 = CALENDAR_DATE ( 2020, 24, 12 ) ;
#291 = DIRECTION ( 'NONE',  ( 0.000000000000000000, 0.000000000000000000, 1.000000000000000000 ) ) ;
#292 = ORIENTED_EDGE ( 'NONE', *, *, #80, .F. ) ;
#293 = PERSON_AND_ORGANIZATION ( #209, #87 ) ;
#294 = EDGE_CURVE ( 'NONE', #137, #141, #224, .T. ) ;
#295 = PRODUCT_DEFINITION ( 'UNKNOWN', '', #176, #206 ) ;
#296 = ORIENTED_EDGE ( 'NONE', *, *, #148, .T. ) ;
#297 = AXIS2_PLACEMENT_3D ( 'NONE', #212, #82, #318 ) ;
#298 = EDGE_LOOP ( 'NONE', ( #49, #89 ) ) ;
#299 = ORIENTED_EDGE ( 'NONE', *, *, #317, .T. ) ;
#300 = EDGE_LOOP ( 'NONE', ( #219, #271, #43, #65 ) ) ;
#301 = FACE_BOUND ( 'NONE', #220, .T. ) ;
#302 = AXIS2_PLACEMENT_3D ( 'NONE', #255, #127, #202 ) ;
#303 = DIRECTION ( 'NONE',  ( 0.000000000000000000, 0.000000000000000000, 1.000000000000000000 ) ) ;
#304 = LINE ( 'NONE', #272, #216 ) ;
#305 = MANIFOLD_SOLID_BREP ( 'Ðý×', #232 ) ;
#306 = COORDINATED_UNIVERSAL_TIME_OFFSET ( 8, 0, .AHEAD. ) ;
#307 = CC_DESIGN_SECURITY_CLASSIFICATION ( #74, ( #176 ) ) ;
#308 = CIRCLE ( 'NONE', #314, 6.349999999999999645 ) ;
#309 = EDGE_CURVE ( 'NONE', #67, #263, #66, .T. ) ;
#310 = EDGE_CURVE ( 'NONE', #165, #193, #81, .T. ) ;
#311 = DIRECTION ( 'NONE',  ( 0.000000000000000000, 0.000000000000000000, 1.000000000000000000 ) ) ;
#312 = CARTESIAN_POINT ( 'NONE',  ( 3.000000000000000000, 1.555301434917138433E-15, -12.69999999999999929 ) ) ;
#313 = CIRCLE ( 'NONE', #99, 12.69999999999999929 ) ;
#314 = AXIS2_PLACEMENT_3D ( 'NONE', #285, #207, #154 ) ;
#315 = PLANE ( 'NONE',  #116 ) ;
#316 = PLANE ( 'NONE',  #55 ) ;
#317 = EDGE_CURVE ( 'NONE', #215, #233, #265, .T. ) ;
#318 = DIRECTION ( 'NONE',  ( 0.000000000000000000, 0.000000000000000000, 1.000000000000000000 ) ) ;
#319 = DIRECTION ( 'NONE',  ( 0.000000000000000000, 0.000000000000000000, 1.000000000000000000 ) ) ;
#320 = CARTESIAN_POINT ( 'NONE',  ( 3.000000000000000888, 0.000000000000000000, 6.349999999999999645 ) ) ;
#321 = APPROVAL_STATUS ( 'not_yet_approved' ) ;
#322 = DIRECTION ( 'NONE',  ( 0.000000000000000000, 0.000000000000000000, 1.000000000000000000 ) ) ;
#323 = APPLICATION_CONTEXT ( 'configuration controlled 3d designs of mechanical parts and assemblies' ) ;
#324 = ORIENTED_EDGE ( 'NONE', *, *, #310, .T. ) ;
#325 = ORIENTED_EDGE ( 'NONE', *, *, #309, .T. ) ;
#326 = CIRCLE ( 'NONE', #42, 6.349999999999999645 ) ;
#327 = ORIENTED_EDGE ( 'NONE', *, *, #186, .F. ) ;
#328 = EDGE_LOOP ( 'NONE', ( #266, #91, #16, #296 ) ) ;
#329 = PLANE ( 'NONE',  #259 ) ;
#330 = DIRECTION ( 'NONE',  ( 1.000000000000000000, 0.000000000000000000, 0.000000000000000000 ) ) ;
#331 = CIRCLE ( 'NONE', #182, 6.349999999999999645 ) ;
#332 = APPROVAL ( #147, 'UNSPECIFIED' ) ;
#333 = DATE_AND_TIME ( #98, #211 ) ;
#334 = DIRECTION ( 'NONE',  ( -1.000000000000000000, -0.000000000000000000, -0.000000000000000000 ) ) ;
#335 = UNCERTAINTY_MEASURE_WITH_UNIT (LENGTH_MEASURE( 1.000000000000000082E-05 ), #159, 'distance_accuracy_value', 'NONE');
ENDSEC;
END-ISO-10303-21;
